  0
SECTION
  2
HEADER
  9
$ACADVER
  1
AC1009
  9
$ANGBASE
  50
0.0
  9
$ANGDIR
  70
0
  9
$ATTDIA
  70
0
  9
$ATTMODE
  70
0
  9
$ATTREQ
  70
1
  9
$AUNITS
  70
0
  9
$AUPREC
  70
2
  9
$AXISMODE
  70
0
  9
$CECOLOR
  62
256
  9
$CELTYPE
  6
BYLAYER
  9
$CLAYER
  8
0
  9
$DIMALT
  70
0
  9
$DIMALTD
  70
2
  9
$DIMALTF
  40
0.0
  9
$DIMAPOST
  1

  9
$DIMASO
  70
1
  9
$DIMASZ
  40
4.0
  9
$DIMBLK
  1

  9
$DIMBLK1
  1

  9
$DIMBLK2
  1

  9
$DIMCEN
  40
0.09
  9
$DIMCLRD
  70
256
  9
$DIMCLRE
  70
256
  9
$DIMCLRT
  70
256
  9
$DIMDLE
  40
0.0
  9
$DIMDLI
  40
10.0
  9
$DIMEXE
  40
3.0
  9
$DIMEXO
  40
1.5
  9
$DIMGAP
  40
1.5
  9
$DIMLFAC
  40
1.0
  9
$DIMLIM
  70
0
  9
$DIMPOST
  1

  9
$DIMRND
  40
0.1
  9
$DIMSAH
  70
0
  9
$DIMSCALE
  40
1.0
  9
$DIMSE1
  70
0
  9
$DIMSE2
  70
0
  9
$DIMSHO
  70
1
  9
$DIMSOXD
  70
0
  9
$DIMSTYLE
  2
*UNNAMED
  9
$DIMTAD
  70
1
  9
$DIMTFAC
  40
1.0
  9
$DIMTIH
  70
1
  9
$DIMTIX
  70
0
  9
$DIMTM
  40
0.0
  9
$DIMTOFL
  70
1
  9
$DIMTOH
  70
1
  9
$DIMTOL
  70
0
  9
$DIMTP
  40
0.0
  9
$DIMTSZ
  40
0.0
  9
$DIMTVP
  40
0.0
  9
$DIMTXT
  40
5.0
  9
$DIMZIN
  70
8
  9
$DRAGMODE
  70
0
  9
$ELEVATION
  40
0.0
  9
$EXTMAX
  10
0.0
  20
0.0
  30
0.0
  9
$EXTMIN
  10
0.0
  20
0.0
  30
0.0
  9
$FILLETRAD
  40
1.0
  9
$FILLMODE
  70
1
  9
$INSBASE
  10
0.0
  20
0.0
  30
0.0
  9
$LIMMAX
  10
289.9
  20
203.1
  9
$LIMMIN
  10
-7.0
  20
-7.0
  9
$LTSCALE
  40
1.0
  9
$LUNITS
  70
2
  9
$LUPREC
  70
2
  9
$MENU
  1
acad
  9
$MIRRTEXT
  70
0
  9
$ORTHOMODE
  70
0
  9
$OSMODE
  70
0
  9
$PDMODE
  70
0
  9
$PDSIZE
  40
0.0
  9
$PEXTMAX
  10
0.0
  20
0.0
  30
0.0
  9
$PEXTMIN
  10
0.0
  20
0.0
  30
0.0
  9
$PLIMCHECK
  70
0
  9
$PLIMMAX
  10
0.0
  20
0.0
  9
$PLIMMIN
  10
0.0
  20
0.0
  9
$PLINEWID
  40
0.0
  9
$PUCSXDIR
  10
1.0
  20
0.0
  30
0.0
  9
$PUCSYDIR
  10
0.0
  20
1.0
  30
0.0
  9
$QTEXTMODE
  70
0
  9
$SHADEDGE
  70
3
  9
$SHADEDIF
  70
70
  9
$SKETCHINC
  40
1.0
  9
$SPLFRAME
  70
0
  9
$SPLINESEGS
  70
20
  9
$SPLINETYPE
  70
0
  9
$SURFTAB1
  70
6
  9
$SURFTAB2
  70
6
  9
$TDINDWG
  40
0.0
  9
$TDUPDATE
  40
2449702.667959
  9
$TDUSRTIMER
  40
0.0
  9
$TEXTSIZE
  40
5.0
  9
$TEXTSTYLE
  7
STANDARD
  9
$TILEMODE
  70
1
  9
$TRACEWID
  40
1.0
  9
$UCSORG
  10
0.0
  20
0.0
  30
0.0
  9
$UCSXDIR
  10
1.0
  20
0.0
  30
0.0
  9
$UCSYDIR
  10
0.0
  20
1.0
  30
0.0
  9
$UNITMODE
  70
0
  9
$WORLDVIEW
  70
1
  9
$GRIDMODE
  70
1
  9
$PINSBASE
  10
0.0
  20
0.0
  30
0.0
  9
$PSLTSCALE
  70
1
  9
$TREEDEPTH
  70
3020
  0
ENDSEC
  0
SECTION
  2
TABLES
  0
TABLE
  2
VPORT
  70
1
  0
VPORT
  2
*ACTIVE
  70
0
  10
0.0
  20
0.0
  11
1.0
  21
1.0
  12
144.992423
  22
87.604538
  13
0.0
  23
0.0
  14
1.0
  24
1.0
  15
1.0
  25
1.0
  16
0.0
  26
0.0
  36
1.0
  17
0.0
  27
0.0
  37
0.0
  40
212.746704
  41
1.435772
  42
50.0
  43
0.0
  44
0.0
  50
0.0
  51
0.0
  71
0
  72
100
  73
1
  74
1
  75
0
  76
1
  77
0
  78
0
  0
ENDTAB
  0
TABLE
  2
LTYPE
  70
11
  0
LTYPE
  2
CONTINUOUS
  70
0
  3
CONTINUOUS
  72
65
  73
0
  40
0.0
  0
LTYPE
  2
BORDER
  70
0
  3
BORDER
  72
65
  73
6
  40
1.75
  49
0.5
  49
-0.25
  49
0.5
  49
-0.25
  49
0.0
  49
-0.25
  0
LTYPE
  2
CENTER
  70
0
  3
CENTER
  72
65
  73
4
  40
2.0
  49
1.25
  49
-0.25
  49
0.25
  49
-0.25
  0
LTYPE
  2
DASHDOT
  70
0
  3
DASHDOT
  72
65
  73
4
  40
1.0
  49
0.5
  49
-0.25
  49
0.0
  49
-0.25
  0
LTYPE
  2
DASHED
  70
0
  3
DASHED
  72
65
  73
2
  40
0.75
  49
0.5
  49
-0.25
  0
LTYPE
  2
DIVIDE
  70
0
  3
DIVIDE
  72
65
  73
6
  40
1.25
  49
0.5
  49
-0.25
  49
0.0
  49
-0.25
  49
0.0
  49
-0.25
  0
LTYPE
  2
DOT
  70
0
  3
DOT
  72
65
  73
2
  40
0.25
  49
0.0
  49
-0.25
  0
LTYPE
  2
HIDDEN
  70
0
  3
HIDDEN
  72
65
  73
2
  40
0.375
  49
0.25
  49
-0.125
  0
LTYPE
  2
PHANTOM
  70
0
  3
PHANTOM
  72
65
  73
6
  40
2.5
  49
1.25
  49
-0.25
  49
0.25
  49
-0.25
  49
0.25
  49
-0.25
  0
LTYPE
  2
$AUXILIARY
  70
0
  3
$AUXILIARY
  72
65
  73
2
  40
0.1
  49
0.05
  49
-0.05
  0
LTYPE
  2
$INVISIBLE
  70
0
  3
$INVISIBLE
  72
65
  73
2
  40
200.0
  49
-100.0
  49
-100.0
  0
ENDTAB
  0
TABLE
  2
LAYER
  70
1
  0
LAYER
  2
0
  70
64
  6
CONTINUOUS
  62
7
  0
ENDTAB
  0
TABLE
  2
STYLE
  70
1
  0
STYLE
  2
STANDARD
  70
0
  3
txt
  4

  40
0.0
  41
1.0
  42
0.2
  50
0.0
  71
0
  0
ENDTAB
  0
ENDSEC
  0
SECTION
  2
BLOCKS
  0
BLOCK
  8
0
  70
65
  2
*G0
  10
0.0
  20
0.0
  30
0.0
  3
*G
  0
POLYLINE
  8
0
  6
CONTINUOUS
  62
7
  66
1
  70
1
  0
VERTEX
  8
0
  10
144.046661
  20
98.255703
  30
0.0
  0
VERTEX
  8
0
  10
139.456538
  20
96.273086
  30
0.0
  0
VERTEX
  8
0
  10
103.769431
  20
178.8953
  30
0.0
  0
VERTEX
  8
0
  10
108.359554
  20
180.877917
  30
0.0
  0
SEQEND
  0
POLYLINE
  8
0
  6
CONTINUOUS
  62
7
  66
1
  70
1
  0
VERTEX
  8
0
  10
126.203108
  20
139.56681
  30
0.0
  0
VERTEX
  8
0
  10
121.612985
  20
137.584193
  30
0.0
  0
VERTEX
  8
0
  10
105.752048
  20
174.305177
  30
0.0
  0
VERTEX
  8
0
  10
110.342171
  20
176.287794
  30
0.0
  0
SEQEND
  0
POLYLINE
  8
0
  6
CONTINUOUS
  62
7
  66
1
  70
1
  0
VERTEX
  8
0
  10
142.064044
  20
102.845826
  30
0.0
  0
VERTEX
  8
0
  10
137.473921
  20
100.863209
  30
0.0
  0
VERTEX
  8
0
  10
121.612985
  20
137.584193
  30
0.0
  0
VERTEX
  8
0
  10
126.203108
  20
139.56681
  30
0.0
  0
SEQEND
  0
ENDBLK
  0
BLOCK
  8
0
  70
65
  2
*G1
  10
0.0
  20
0.0
  30
0.0
  3
*G
  0
POLYLINE
  8
0
  6
CONTINUOUS
  62
7
  66
1
  70
1
  0
VERTEX
  8
0
  10
88.260663
  20
101.446811
  30
0.0
  0
VERTEX
  8
0
  10
83.643246
  20
99.528618
  30
0.0
  0
VERTEX
  8
0
  10
48.252584
  20
184.719953
  30
0.0
  0
VERTEX
  8
0
  10
52.870001
  20
186.638146
  30
0.0
  0
SEQEND
  0
POLYLINE
  8
0
  6
CONTINUOUS
  62
7
  66
1
  70
1
  0
VERTEX
  8
0
  10
70.565332
  20
144.042478
  30
0.0
  0
VERTEX
  8
0
  10
65.947915
  20
142.124285
  30
0.0
  0
VERTEX
  8
0
  10
50.218732
  20
179.987101
  30
0.0
  0
VERTEX
  8
0
  10
54.836149
  20
181.905294
  30
0.0
  0
SEQEND
  0
POLYLINE
  8
0
  6
CONTINUOUS
  62
7
  66
1
  70
1
  0
VERTEX
  8
0
  10
86.294515
  20
106.179663
  30
0.0
  0
VERTEX
  8
0
  10
81.677098
  20
104.26147
  30
0.0
  0
VERTEX
  8
0
  10
65.947915
  20
142.124285
  30
0.0
  0
VERTEX
  8
0
  10
70.565332
  20
144.042478
  30
0.0
  0
SEQEND
  0
ENDBLK
  0
ENDSEC
  0
SECTION
  2
ENTITIES
  0
POLYLINE
  8
0
  6
CONTINUOUS
  62
7
  66
1
  70
1
  0
VERTEX
  8
0
  10
263.0
  20
180.0
  30
0.0
  0
VERTEX
  8
0
  10
235.0
  20
175.0
  30
0.0
  0
VERTEX
  8
0
  10
190.0
  20
122.0
  30
0.0
  0
VERTEX
  8
0
  10
248.0
  20
122.0
  30
0.0
  0
VERTEX
  8
0
  10
263.0
  20
134.0
  30
0.0
  0
SEQEND
  0
POLYLINE
  8
0
  6
CONTINUOUS
  62
7
  66
1
  0
VERTEX
  8
0
  10
226.0
  20
165.0
  30
0.0
  0
VERTEX
  8
0
  10
248.0
  20
165.0
  30
0.0
  0
VERTEX
  8
0
  10
248.0
  20
122.0
  30
0.0
  0
SEQEND
  0
POLYLINE
  8
0
  6
CONTINUOUS
  62
7
  66
1
  70
1
  0
VERTEX
  8
0
  10
54.742727
  20
131.982112
  30
0.0
  0
VERTEX
  8
0
  10
39.884696
  20
129.923246
  30
0.0
  0
VERTEX
  8
0
  10
41.257273
  20
120.017892
  30
0.0
  0
VERTEX
  8
0
  10
56.115304
  20
122.076758
  30
0.0
  0
SEQEND
  0
POLYLINE
  8
0
  6
CONTINUOUS
  62
7
  66
1
  70
1
  0
VERTEX
  8
0
  10
50.048256
  20
134.075304
  30
0.0
  0
VERTEX
  8
0
  10
31.727657
  20
131.551179
  30
0.0
  0
VERTEX
  8
0
  10
31.951747
  20
129.924695
  30
0.0
  0
VERTEX
  8
0
  10
50.272346
  20
132.44882
  30
0.0
  0
SEQEND
  0
POLYLINE
  8
0
  6
CONTINUOUS
  62
7
  66
1
  70
1
  0
VERTEX
  8
0
  10
25.878187
  20
172.418958
  30
0.0
  0
VERTEX
  8
0
  10
28.85106
  20
172.821485
  30
0.0
  0
VERTEX
  8
0
  10
40.121811
  20
89.581049
  30
0.0
  0
VERTEX
  8
0
  10
37.148939
  20
89.178522
  30
0.0
  0
SEQEND
  0
POLYLINE
  8
0
  6
CONTINUOUS
  62
7
  66
1
  70
1
  0
VERTEX
  8
0
  10
248.0
  20
122.0
  30
0.0
  0
VERTEX
  8
0
  10
57.0
  20
122.059497
  30
0.0
  0
VERTEX
  8
0
  10
42.0
  20
120.0
  30
0.0
  0
VERTEX
  8
0
  10
44.0
  20
118.0
  30
0.0
  0
VERTEX
  8
0
  10
200.0
  20
118.0
  30
0.0
  0
VERTEX
  8
0
  10
248.0
  20
120.0
  30
0.0
  0
SEQEND
  0
POLYLINE
  8
0
  6
CONTINUOUS
  62
7
  66
1
  70
1
  0
VERTEX
  8
0
  10
50.125434
  20
180.191281
  30
0.0
  0
VERTEX
  8
0
  10
50.410691
  20
179.942716
  30
0.0
  0
VERTEX
  8
0
  10
51.281573
  20
179.698203
  30
0.0
  0
VERTEX
  8
0
  10
52.726267
  20
179.59216
  30
0.0
  0
VERTEX
  8
0
  10
91.139472
  20
178.980124
  30
0.0
  0
VERTEX
  8
0
  10
109.937555
  20
175.392755
  30
0.0
  0
VERTEX
  8
0
  10
110.192089
  20
176.280904
  30
0.0
  0
VERTEX
  8
0
  10
86.01748
  20
181.263818
  30
0.0
  0
VERTEX
  8
0
  10
76.494338
  20
182.656553
  30
0.0
  0
VERTEX
  8
0
  10
70.444783
  20
183.305035
  30
0.0
  0
VERTEX
  8
0
  10
65.004394
  20
183.613755
  30
0.0
  0
VERTEX
  8
0
  10
58.799508
  20
183.548914
  30
0.0
  0
VERTEX
  8
0
  10
54.953845
  20
183.137472
  30
0.0
  0
VERTEX
  8
0
  10
53.007818
  20
182.689555
  30
0.0
  0
VERTEX
  8
0
  10
51.480133
  20
182.107969
  30
0.0
  0
VERTEX
  8
0
  10
50.748979
  20
181.597989
  30
0.0
  0
VERTEX
  8
0
  10
50.305846
  20
180.98993
  30
0.0
  0
VERTEX
  8
0
  10
50.155245
  20
180.557632
  30
0.0
  0
SEQEND
  0
INSERT
  8
0
  6
CONTINUOUS
  62
7
  2
*G0
  10
0.0
  20
0.0
  1001
ACAD
  1000
ACAD_TCW25GROUP
  1002
{
  1000
Group_1
  1002
}
  0
POLYLINE
  8
0
  6
CONTINUOUS
  62
7
  66
1
  70
1
  0
VERTEX
  8
0
  10
66.035848
  20
142.134049
  30
0.0
  0
VERTEX
  8
0
  10
66.326327
  20
141.891616
  30
0.0
  0
VERTEX
  8
0
  10
67.202209
  20
141.665664
  30
0.0
  0
VERTEX
  8
0
  10
68.648832
  20
141.59036
  30
0.0
  0
VERTEX
  8
0
  10
107.066366
  20
141.795169
  30
0.0
  0
VERTEX
  8
0
  10
125.936472
  20
138.608264
  30
0.0
  0
VERTEX
  8
0
  10
126.172067
  20
139.501628
  30
0.0
  0
VERTEX
  8
0
  10
101.896976
  20
143.96944
  30
0.0
  0
VERTEX
  8
0
  10
92.346381
  20
145.159395
  30
0.0
  0
VERTEX
  8
0
  10
86.284406
  20
145.679113
  30
0.0
  0
VERTEX
  8
0
  10
80.83868
  20
145.872089
  30
0.0
  0
VERTEX
  8
0
  10
74.636576
  20
145.675346
  30
0.0
  0
VERTEX
  8
0
  10
70.800529
  20
145.18223
  30
0.0
  0
VERTEX
  8
0
  10
68.864465
  20
144.693041
  30
0.0
  0
VERTEX
  8
0
  10
67.349492
  20
144.079117
  30
0.0
  0
VERTEX
  8
0
  10
66.629345
  20
143.553709
  30
0.0
  0
VERTEX
  8
0
  10
66.19924
  20
142.936363
  30
0.0
  0
VERTEX
  8
0
  10
66.057862
  20
142.500955
  30
0.0
  0
SEQEND
  0
POLYLINE
  8
0
  6
CONTINUOUS
  62
7
  66
1
  70
1
  0
VERTEX
  8
0
  10
81.840637
  20
104.405925
  30
0.0
  0
VERTEX
  8
0
  10
82.136311
  20
104.169856
  30
0.0
  0
VERTEX
  8
0
  10
83.016893
  20
103.962974
  30
0.0
  0
VERTEX
  8
0
  10
84.46481
  20
103.919098
  30
0.0
  0
VERTEX
  8
0
  10
122.86884
  20
104.957995
  30
0.0
  0
VERTEX
  8
0
  10
141.803693
  20
102.181556
  30
0.0
  0
VERTEX
  8
0
  10
142.019835
  20
103.079825
  30
0.0
  0
VERTEX
  8
0
  10
117.65346
  20
107.019514
  30
0.0
  0
VERTEX
  8
0
  10
108.07928
  20
108.001822
  30
0.0
  0
VERTEX
  8
0
  10
102.00745
  20
108.389798
  30
0.0
  0
VERTEX
  8
0
  10
96.558817
  20
108.464489
  30
0.0
  0
VERTEX
  8
0
  10
90.362447
  20
108.133129
  30
0.0
  0
VERTEX
  8
0
  10
86.538012
  20
107.55684
  30
0.0
  0
VERTEX
  8
0
  10
84.613025
  20
107.02573
  30
0.0
  0
VERTEX
  8
0
  10
83.111739
  20
106.379057
  30
0.0
  0
VERTEX
  8
0
  10
82.40317
  20
105.838137
  30
0.0
  0
VERTEX
  8
0
  10
81.986571
  20
105.211598
  30
0.0
  0
VERTEX
  8
0
  10
81.854679
  20
104.773222
  30
0.0
  0
SEQEND
  0
INSERT
  8
0
  6
CONTINUOUS
  62
7
  2
*G1
  10
0.0
  20
0.0
  1001
ACAD
  1000
ACAD_TCW25GROUP
  1002
{
  1000
Group_1
  1002
}
  0
POLYLINE
  8
0
  6
CONTINUOUS
  62
7
  66
1
  0
VERTEX
  8
0
  10
73.726634
  20
122.637875
  30
0.0
  0
VERTEX
  8
0
  10
78.137237
  20
112.216745
  30
0.0
  0
VERTEX
  8
0
  10
61.521809
  20
76.934741
  30
0.0
  0
SEQEND
  0
CIRCLE
  8
0
  6
CONTINUOUS
  62
7
  10
60.82995
  20
77.280669
  40
8.0
  0
POLYLINE
  8
0
  6
CONTINUOUS
  62
7
  66
1
  0
VERTEX
  8
0
  10
239.0
  20
119.0
  30
0.0
  0
VERTEX
  8
0
  10
247.0
  20
119.0
  30
0.0
  0
VERTEX
  8
0
  10
259.0
  20
106.0
  30
0.0
  0
VERTEX
  8
0
  10
261.0
  20
106.0
  30
0.0
  0
VERTEX
  8
0
  10
261.0
  20
108.0
  30
0.0
  0
VERTEX
  8
0
  10
259.0
  20
108.0
  30
0.0
  0
VERTEX
  8
0
  10
259.0
  20
107.0
  30
0.0
  0
SEQEND
  0
LINE
  8
0
  6
CONTINUOUS
  62
7
  10
110.597061
  20
176.300114
  11
124.95314
  21
182.267399
  0
LINE
  8
0
  6
CONTINUOUS
  62
7
  10
126.769263
  20
139.750502
  11
141.125343
  21
145.717787
  0
LINE
  8
0
  6
CONTINUOUS
  62
7
  10
133.839198
  20
121.967569
  11
148.195277
  21
127.934855
  0
LINE
  8
0
  6
CONTINUOUS
  62
7
  10
142.141508
  20
102.973884
  11
156.497587
  21
108.941169
  0
LINE
  8
0
  6
CONTINUOUS
  62
7
  10
120.953347
  20
181.203391
  11
151.870764
  21
106.822349
  0
TEXT
  8
0
  62
7
  10
133.298529
  20
159.130248
  1
40 mm
  40
4.7625
  7
STANDARD
  72
5
  11
149.389428
  21
159.130248
  31
0.0
  0
TEXT
  8
0
  62
7
  10
144.387458
  20
133.514598
  1
19 mm
  40
4.762493
  7
STANDARD
  72
5
  11
160.478369
  21
133.514598
  31
0.0
  0
TEXT
  8
0
  62
7
  10
152.343838
  20
112.758822
  1
21 mm
  40
4.762493
  7
STANDARD
  72
5
  11
168.43475
  21
112.758822
  31
0.0
  0
LINE
  8
0
  6
CONTINUOUS
  62
7
  10
34.557405
  20
173.630005
  11
48.913484
  21
179.59729
  0
LINE
  8
0
  6
CONTINUOUS
  62
7
  10
51.151217
  20
136.139884
  11
65.507296
  21
142.10717
  0
LINE
  8
0
  6
CONTINUOUS
  62
7
  10
66.891015
  20
98.195735
  11
81.247094
  21
104.16302
  0
LINE
  8
0
  6
CONTINUOUS
  62
7
  10
39.422068
  20
175.751905
  11
70.95829
  21
99.88214
  0
TEXT
  8
0
  62
7
  10
38.187071
  20
154.270374
  1
41 mm
  40
4.762493
  7
STANDARD
  72
5
  11
54.277983
  21
154.270374
  31
0.0
  0
LINE
  8
0
  6
CONTINUOUS
  62
7
  10
60.058906
  20
116.01111
  11
74.414981
  21
121.978395
  0
TEXT
  8
0
  62
7
  10
57.029427
  20
106.251018
  1
19 mm
  40
4.762493
  7
STANDARD
  72
5
  11
73.120338
  21
106.251018
  31
0.0
  0
TEXT
  8
0
  62
7
  10
52.878271
  20
126.14197
  1
22 mm
  40
4.762493
  7
STANDARD
  72
5
  11
68.969183
  21
126.14197
  31
0.0
  0
TEXT
  8
0
  62
7
  10
4.924053
  20
61.762493
  1
Two 1/16 x 3/16"are glued to each side of the 3/16"sq. fuse under 22 deg from square.
  40
4.762493
  7
STANDARD
  72
5
  11
203.075949
  21
61.762493
  31
0.0
  0
TEXT
  8
0
  62
7
  10
4.924053
  20
55.412502
  1
The position of the leading edges and fuselage are indicated first with soft pencil.
  40
4.762493
  7
STANDARD
  72
5
  11
203.075949
  21
55.412502
  31
0.0
  0
TEXT
  8
0
  62
7
  10
4.924053
  20
49.062511
  1
The two uprights for the trailing edge are glued with the fuse on its side.
  40
4.762493
  7
STANDARD
  72
5
  11
203.075949
  21
49.062511
  31
0.0
  0
TEXT
  8
0
  62
7
  10
5.367889
  20
43.587498
  1
The wings receive two slots at leading edge and two at trailing edge.
  40
4.762493
  7
STANDARD
  72
5
  11
213.438502
  21
43.587498
  31
0.0
  0
TEXT
  8
0
  62
7
  10
5.367889
  20
37.237507
  1
Glue in place with some rigging to keep everything straight. Trim off the excess of the uprights.
  40
4.762493
  7
STANDARD
  72
5
  11
213.438502
  21
37.237507
  31
0.0
  0
TEXT
  8
0
  62
7
  10
79.632444
  20
81.762493
  1
The wings are 180 mm span and 60 mm chord, thin slightly undercambered airfoil.
  40
4.762493
  7
STANDARD
  72
5
  11
270.367541
  21
81.762493
  31
0.0
  0
TEXT
  8
0
  62
7
  10
79.632444
  20
75.412502
  1
Dihedral 20 mm under each tip. All wings are equal.
  40
4.762493
  7
STANDARD
  72
5
  11
270.367541
  21
75.412502
  31
0.0
  0
TEXT
  8
0
  62
7
  10
79.632444
  20
69.062511
  1
Angle of incidence decreases from top to bottom wings.
  40
4.762493
  7
STANDARD
  72
5
  11
270.367541
  21
69.062511
  31
0.0
  0
TEXT
  8
0
  62
7
  10
5.645905
  20
30.587498
  1
Landing gear is from 0.5 mm wire ( 0.02") Wheels are foam with plastic axle.
  40
4.762493
  7
STANDARD
  72
5
  11
184.354093
  21
30.587498
  31
0.0
  0
TEXT
  8
0
  62
7
  10
5.645905
  20
24.237507
  1
Tail "wheel" from 0.3 mm wire (0.012")
  40
4.762493
  7
STANDARD
  72
5
  11
184.354093
  21
24.237507
  31
0.0
  0
TEXT
  8
0
  62
7
  10
6.871661
  20
17.762493
  1
My original used a KP-00 motor and own made gearing.
  40
4.762493
  7
STANDARD
  72
5
  11
177.128335
  21
17.762493
  31
0.0
  0
TEXT
  8
0
  62
7
  10
6.871661
  20
11.412502
  1
The standard KP-00 will  do quite as well Use the 85 mm adjustable prop.
  40
4.762493
  7
STANDARD
  72
5
  11
177.128335
  21
11.412502
  31
0.0
  0
TEXT
  8
0
  62
7
  10
6.871661
  20
5.062511
  1
Use the new LiPolymer cell for power.
  40
4.762493
  7
STANDARD
  72
5
  11
177.128335
  21
5.062511
  31
0.0
  0
ENDSEC
  0
EOF
